ISO-10303-21;
HEADER;
/* Generated by software containing ST-Developer
 * from STEP Tools, Inc. (www.steptools.com) 
 */
/* OPTION: using custom schema-name function */

FILE_DESCRIPTION(
/* description */ (''),
/* implementation_level */ '2;1');

FILE_NAME(
/* name */ '08_2610_000_000_001_00.stp',
/* time_stamp */ '2014-04-03T08:42:35+02:00',
/* author */ (''),
/* organization */ (''),
/* preprocessor_version */ 'ST-DEVELOPER v14',
/* originating_system */ 'SIEMENS PLM Software NX 8.0',
/* authorisation */ '');

FILE_SCHEMA (('AUTOMOTIVE_DESIGN { 1 0 10303 214 3 1 1 1 }'));
ENDSEC;

DATA;
#10=PROPERTY_DEFINITION_REPRESENTATION(#14,#12);
#11=PROPERTY_DEFINITION_REPRESENTATION(#15,#13);
#12=REPRESENTATION('',(#16),#474);
#13=REPRESENTATION('',(#17),#474);
#14=PROPERTY_DEFINITION('pmi validation property','',#21);
#15=PROPERTY_DEFINITION('pmi validation property','',#21);
#16=VALUE_REPRESENTATION_ITEM('number of annotations',COUNT_MEASURE(0.));
#17=VALUE_REPRESENTATION_ITEM('number of views',COUNT_MEASURE(0.));
#18=SHAPE_REPRESENTATION_RELATIONSHIP('None',
'relationship between cerl017465C4fyv0-None and cerl017465C4fyv0-None',#30,
#19);
#19=ADVANCED_BREP_SHAPE_REPRESENTATION('cerl017465C4fyv0-None',(#40),#474);
#20=SHAPE_DEFINITION_REPRESENTATION(#21,#30);
#21=PRODUCT_DEFINITION_SHAPE('','',#22);
#22=PRODUCT_DEFINITION(' ','',#24,#23);
#23=PRODUCT_DEFINITION_CONTEXT('part definition',#29,'design');
#24=PRODUCT_DEFINITION_FORMATION_WITH_SPECIFIED_SOURCE(' ',' ',#26,
 .NOT_KNOWN.);
#25=PRODUCT_RELATED_PRODUCT_CATEGORY('part','',(#26));
#26=PRODUCT('cerl017465C4fyv0','cerl017465C4fyv0',' ',(#27));
#27=PRODUCT_CONTEXT(' ',#29,'mechanical');
#28=APPLICATION_PROTOCOL_DEFINITION('international standard',
'automotive_design',2010,#29);
#29=APPLICATION_CONTEXT(
'core data for automotive mechanical design processes');
#30=SHAPE_REPRESENTATION('cerl017465C4fyv0-None',(#279),#474);
#31=PRESENTATION_LAYER_ASSIGNMENT('8','Layer 8',(#40));
#32=STYLED_ITEM('',(#33),#40);
#33=PRESENTATION_STYLE_ASSIGNMENT((#34));
#34=SURFACE_STYLE_USAGE(.BOTH.,#35);
#35=SURFACE_SIDE_STYLE('',(#36));
#36=SURFACE_STYLE_FILL_AREA(#37);
#37=FILL_AREA_STYLE('',(#38));
#38=FILL_AREA_STYLE_COLOUR('',#39);
#39=COLOUR_RGB('Orange',0.843121995880064,0.541161211566339,0.317631799801633);
#40=MANIFOLD_SOLID_BREP('',#41);
#41=CLOSED_SHELL('',(#80,#81,#82,#83,#84,#85,#86,#87,#88,#89,#90,#91,#92,
#93,#94,#95,#96));
#42=TOROIDAL_SURFACE('',#316,1.5,0.2);
#43=LINE('',#453,#52);
#44=LINE('',#456,#53);
#45=LINE('',#458,#54);
#46=LINE('',#460,#55);
#47=LINE('',#462,#56);
#48=LINE('',#464,#57);
#49=LINE('',#465,#58);
#50=LINE('',#467,#59);
#51=LINE('',#468,#60);
#52=VECTOR('',#379,1.);
#53=VECTOR('',#380,1.);
#54=VECTOR('',#381,1.);
#55=VECTOR('',#382,1.);
#56=VECTOR('',#385,1.);
#57=VECTOR('',#388,1.);
#58=VECTOR('',#389,1.);
#59=VECTOR('',#392,1.);
#60=VECTOR('',#393,1.);
#61=CONICAL_SURFACE('',#308,2.1,45.0000000000001);
#62=CONICAL_SURFACE('',#309,2.1,45.0000000000001);
#63=FACE_OUTER_BOUND('',#131,.T.);
#64=FACE_OUTER_BOUND('',#140,.T.);
#65=FACE_OUTER_BOUND('',#141,.T.);
#66=FACE_OUTER_BOUND('',#142,.T.);
#67=FACE_OUTER_BOUND('',#143,.T.);
#68=FACE_OUTER_BOUND('',#144,.T.);
#69=FACE_OUTER_BOUND('',#145,.T.);
#70=PLANE('',#297);
#71=PLANE('',#302);
#72=PLANE('',#307);
#73=PLANE('',#310);
#74=PLANE('',#311);
#75=PLANE('',#312);
#76=PLANE('',#313);
#77=PLANE('',#314);
#78=PLANE('',#315);
#79=SPHERICAL_SURFACE('',#293,5.);
#80=ADVANCED_FACE('',(#101,#102),#97,.T.);
#81=ADVANCED_FACE('',(#103,#104),#79,.T.);
#82=ADVANCED_FACE('',(#105,#106),#98,.T.);
#83=ADVANCED_FACE('',(#107,#108),#70,.F.);
#84=ADVANCED_FACE('',(#109,#110),#99,.T.);
#85=ADVANCED_FACE('',(#63),#71,.F.);
#86=ADVANCED_FACE('',(#111,#112),#100,.F.);
#87=ADVANCED_FACE('',(#113,#114),#72,.T.);
#88=ADVANCED_FACE('',(#115,#116),#61,.T.);
#89=ADVANCED_FACE('',(#117,#118),#62,.T.);
#90=ADVANCED_FACE('',(#64),#73,.F.);
#91=ADVANCED_FACE('',(#65),#74,.T.);
#92=ADVANCED_FACE('',(#66),#75,.F.);
#93=ADVANCED_FACE('',(#67),#76,.T.);
#94=ADVANCED_FACE('',(#68),#77,.T.);
#95=ADVANCED_FACE('',(#69),#78,.T.);
#96=ADVANCED_FACE('',(#119,#120),#42,.F.);
#97=CYLINDRICAL_SURFACE('',#282,3.);
#98=CYLINDRICAL_SURFACE('',#296,2.5);
#99=CYLINDRICAL_SURFACE('',#300,2.1);
#100=CYLINDRICAL_SURFACE('',#305,1.7);
#101=FACE_BOUND('',#121,.T.);
#102=FACE_BOUND('',#122,.T.);
#103=FACE_BOUND('',#123,.T.);
#104=FACE_BOUND('',#124,.T.);
#105=FACE_BOUND('',#125,.T.);
#106=FACE_BOUND('',#126,.T.);
#107=FACE_BOUND('',#127,.T.);
#108=FACE_BOUND('',#128,.T.);
#109=FACE_BOUND('',#129,.T.);
#110=FACE_BOUND('',#130,.T.);
#111=FACE_BOUND('',#132,.T.);
#112=FACE_BOUND('',#133,.T.);
#113=FACE_BOUND('',#134,.T.);
#114=FACE_BOUND('',#135,.T.);
#115=FACE_BOUND('',#136,.T.);
#116=FACE_BOUND('',#137,.T.);
#117=FACE_BOUND('',#138,.T.);
#118=FACE_BOUND('',#139,.T.);
#119=FACE_BOUND('',#146,.T.);
#120=FACE_BOUND('',#147,.T.);
#121=EDGE_LOOP('',(#148));
#122=EDGE_LOOP('',(#149));
#123=EDGE_LOOP('',(#150,#151,#152,#153,#154,#155,#156,#157,#158,#159));
#124=EDGE_LOOP('',(#160));
#125=EDGE_LOOP('',(#161));
#126=EDGE_LOOP('',(#162));
#127=EDGE_LOOP('',(#163));
#128=EDGE_LOOP('',(#164));
#129=EDGE_LOOP('',(#165));
#130=EDGE_LOOP('',(#166));
#131=EDGE_LOOP('',(#167));
#132=EDGE_LOOP('',(#168));
#133=EDGE_LOOP('',(#169));
#134=EDGE_LOOP('',(#170));
#135=EDGE_LOOP('',(#171));
#136=EDGE_LOOP('',(#172));
#137=EDGE_LOOP('',(#173));
#138=EDGE_LOOP('',(#174));
#139=EDGE_LOOP('',(#175));
#140=EDGE_LOOP('',(#176,#177,#178,#179));
#141=EDGE_LOOP('',(#180,#181,#182));
#142=EDGE_LOOP('',(#183,#184,#185,#186,#187,#188));
#143=EDGE_LOOP('',(#189,#190,#191,#192,#193));
#144=EDGE_LOOP('',(#194,#195,#196,#197,#198));
#145=EDGE_LOOP('',(#199,#200,#201,#202,#203));
#146=EDGE_LOOP('',(#204));
#147=EDGE_LOOP('',(#205));
#148=ORIENTED_EDGE('',*,*,#230,.F.);
#149=ORIENTED_EDGE('',*,*,#231,.T.);
#150=ORIENTED_EDGE('',*,*,#232,.T.);
#151=ORIENTED_EDGE('',*,*,#233,.T.);
#152=ORIENTED_EDGE('',*,*,#234,.T.);
#153=ORIENTED_EDGE('',*,*,#235,.T.);
#154=ORIENTED_EDGE('',*,*,#236,.T.);
#155=ORIENTED_EDGE('',*,*,#237,.T.);
#156=ORIENTED_EDGE('',*,*,#238,.T.);
#157=ORIENTED_EDGE('',*,*,#239,.T.);
#158=ORIENTED_EDGE('',*,*,#240,.T.);
#159=ORIENTED_EDGE('',*,*,#241,.T.);
#160=ORIENTED_EDGE('',*,*,#231,.F.);
#161=ORIENTED_EDGE('',*,*,#242,.T.);
#162=ORIENTED_EDGE('',*,*,#243,.F.);
#163=ORIENTED_EDGE('',*,*,#230,.T.);
#164=ORIENTED_EDGE('',*,*,#243,.T.);
#165=ORIENTED_EDGE('',*,*,#244,.T.);
#166=ORIENTED_EDGE('',*,*,#245,.F.);
#167=ORIENTED_EDGE('',*,*,#246,.T.);
#168=ORIENTED_EDGE('',*,*,#247,.T.);
#169=ORIENTED_EDGE('',*,*,#248,.F.);
#170=ORIENTED_EDGE('',*,*,#249,.T.);
#171=ORIENTED_EDGE('',*,*,#248,.T.);
#172=ORIENTED_EDGE('',*,*,#242,.F.);
#173=ORIENTED_EDGE('',*,*,#245,.T.);
#174=ORIENTED_EDGE('',*,*,#249,.F.);
#175=ORIENTED_EDGE('',*,*,#244,.F.);
#176=ORIENTED_EDGE('',*,*,#250,.T.);
#177=ORIENTED_EDGE('',*,*,#251,.T.);
#178=ORIENTED_EDGE('',*,*,#252,.T.);
#179=ORIENTED_EDGE('',*,*,#253,.T.);
#180=ORIENTED_EDGE('',*,*,#235,.F.);
#181=ORIENTED_EDGE('',*,*,#254,.T.);
#182=ORIENTED_EDGE('',*,*,#236,.F.);
#183=ORIENTED_EDGE('',*,*,#252,.F.);
#184=ORIENTED_EDGE('',*,*,#255,.T.);
#185=ORIENTED_EDGE('',*,*,#237,.F.);
#186=ORIENTED_EDGE('',*,*,#254,.F.);
#187=ORIENTED_EDGE('',*,*,#234,.F.);
#188=ORIENTED_EDGE('',*,*,#256,.T.);
#189=ORIENTED_EDGE('',*,*,#240,.F.);
#190=ORIENTED_EDGE('',*,*,#257,.T.);
#191=ORIENTED_EDGE('',*,*,#250,.F.);
#192=ORIENTED_EDGE('',*,*,#258,.T.);
#193=ORIENTED_EDGE('',*,*,#241,.F.);
#194=ORIENTED_EDGE('',*,*,#256,.F.);
#195=ORIENTED_EDGE('',*,*,#233,.F.);
#196=ORIENTED_EDGE('',*,*,#232,.F.);
#197=ORIENTED_EDGE('',*,*,#258,.F.);
#198=ORIENTED_EDGE('',*,*,#253,.F.);
#199=ORIENTED_EDGE('',*,*,#255,.F.);
#200=ORIENTED_EDGE('',*,*,#251,.F.);
#201=ORIENTED_EDGE('',*,*,#257,.F.);
#202=ORIENTED_EDGE('',*,*,#239,.F.);
#203=ORIENTED_EDGE('',*,*,#238,.F.);
#204=ORIENTED_EDGE('',*,*,#246,.F.);
#205=ORIENTED_EDGE('',*,*,#247,.F.);
#206=VERTEX_POINT('',#404);
#207=VERTEX_POINT('',#406);
#208=VERTEX_POINT('',#409);
#209=VERTEX_POINT('',#410);
#210=VERTEX_POINT('',#412);
#211=VERTEX_POINT('',#414);
#212=VERTEX_POINT('',#416);
#213=VERTEX_POINT('',#418);
#214=VERTEX_POINT('',#420);
#215=VERTEX_POINT('',#422);
#216=VERTEX_POINT('',#424);
#217=VERTEX_POINT('',#426);
#218=VERTEX_POINT('',#430);
#219=VERTEX_POINT('',#432);
#220=VERTEX_POINT('',#436);
#221=VERTEX_POINT('',#438);
#222=VERTEX_POINT('',#441);
#223=VERTEX_POINT('',#444);
#224=VERTEX_POINT('',#446);
#225=VERTEX_POINT('',#449);
#226=VERTEX_POINT('',#454);
#227=VERTEX_POINT('',#455);
#228=VERTEX_POINT('',#457);
#229=VERTEX_POINT('',#459);
#230=EDGE_CURVE('',#206,#206,#259,.T.);
#231=EDGE_CURVE('',#207,#207,#260,.T.);
#232=EDGE_CURVE('',#208,#209,#261,.T.);
#233=EDGE_CURVE('',#209,#210,#262,.T.);
#234=EDGE_CURVE('',#210,#211,#263,.T.);
#235=EDGE_CURVE('',#211,#212,#264,.T.);
#236=EDGE_CURVE('',#212,#213,#265,.T.);
#237=EDGE_CURVE('',#213,#214,#266,.T.);
#238=EDGE_CURVE('',#214,#215,#267,.T.);
#239=EDGE_CURVE('',#215,#216,#268,.T.);
#240=EDGE_CURVE('',#216,#217,#269,.T.);
#241=EDGE_CURVE('',#217,#208,#270,.T.);
#242=EDGE_CURVE('',#218,#218,#271,.T.);
#243=EDGE_CURVE('',#219,#219,#272,.T.);
#244=EDGE_CURVE('',#220,#220,#273,.T.);
#245=EDGE_CURVE('',#221,#221,#274,.T.);
#246=EDGE_CURVE('',#222,#222,#275,.T.);
#247=EDGE_CURVE('',#223,#223,#276,.T.);
#248=EDGE_CURVE('',#224,#224,#277,.T.);
#249=EDGE_CURVE('',#225,#225,#278,.T.);
#250=EDGE_CURVE('',#226,#227,#43,.T.);
#251=EDGE_CURVE('',#227,#228,#44,.T.);
#252=EDGE_CURVE('',#228,#229,#45,.T.);
#253=EDGE_CURVE('',#229,#226,#46,.T.);
#254=EDGE_CURVE('',#211,#213,#47,.T.);
#255=EDGE_CURVE('',#228,#214,#48,.T.);
#256=EDGE_CURVE('',#210,#229,#49,.T.);
#257=EDGE_CURVE('',#216,#227,#50,.T.);
#258=EDGE_CURVE('',#226,#208,#51,.T.);
#259=CIRCLE('',#280,3.);
#260=CIRCLE('',#281,3.);
#261=CIRCLE('',#283,4.98998554651651);
#262=CIRCLE('',#284,4.98998554651651);
#263=CIRCLE('',#285,4.69842309991369);
#264=CIRCLE('',#286,4.53153893518641);
#265=CIRCLE('',#287,4.53153893518641);
#266=CIRCLE('',#288,4.69842309991369);
#267=CIRCLE('',#289,4.98998554651651);
#268=CIRCLE('',#290,4.98998554651651);
#269=CIRCLE('',#291,4.53153893518641);
#270=CIRCLE('',#292,4.53153893518641);
#271=CIRCLE('',#294,2.5);
#272=CIRCLE('',#295,2.5);
#273=CIRCLE('',#298,2.1);
#274=CIRCLE('',#299,2.1);
#275=CIRCLE('',#301,1.5);
#276=CIRCLE('',#303,1.7);
#277=CIRCLE('',#304,1.7);
#278=CIRCLE('',#306,2.05);
#279=AXIS2_PLACEMENT_3D('',#402,#317,#318);
#280=AXIS2_PLACEMENT_3D('',#403,#319,#320);
#281=AXIS2_PLACEMENT_3D('',#405,#321,#322);
#282=AXIS2_PLACEMENT_3D('',#407,#323,#324);
#283=AXIS2_PLACEMENT_3D('',#408,#325,#326);
#284=AXIS2_PLACEMENT_3D('',#411,#327,#328);
#285=AXIS2_PLACEMENT_3D('',#413,#329,#330);
#286=AXIS2_PLACEMENT_3D('',#415,#331,#332);
#287=AXIS2_PLACEMENT_3D('',#417,#333,#334);
#288=AXIS2_PLACEMENT_3D('',#419,#335,#336);
#289=AXIS2_PLACEMENT_3D('',#421,#337,#338);
#290=AXIS2_PLACEMENT_3D('',#423,#339,#340);
#291=AXIS2_PLACEMENT_3D('',#425,#341,#342);
#292=AXIS2_PLACEMENT_3D('',#427,#343,#344);
#293=AXIS2_PLACEMENT_3D('',#428,#345,#346);
#294=AXIS2_PLACEMENT_3D('',#429,#347,#348);
#295=AXIS2_PLACEMENT_3D('',#431,#349,#350);
#296=AXIS2_PLACEMENT_3D('',#433,#351,#352);
#297=AXIS2_PLACEMENT_3D('',#434,#353,#354);
#298=AXIS2_PLACEMENT_3D('',#435,#355,#356);
#299=AXIS2_PLACEMENT_3D('',#437,#357,#358);
#300=AXIS2_PLACEMENT_3D('',#439,#359,#360);
#301=AXIS2_PLACEMENT_3D('',#440,#361,#362);
#302=AXIS2_PLACEMENT_3D('',#442,#363,#364);
#303=AXIS2_PLACEMENT_3D('',#443,#365,#366);
#304=AXIS2_PLACEMENT_3D('',#445,#367,#368);
#305=AXIS2_PLACEMENT_3D('',#447,#369,#370);
#306=AXIS2_PLACEMENT_3D('',#448,#371,#372);
#307=AXIS2_PLACEMENT_3D('',#450,#373,#374);
#308=AXIS2_PLACEMENT_3D('',#451,#375,#376);
#309=AXIS2_PLACEMENT_3D('',#452,#377,#378);
#310=AXIS2_PLACEMENT_3D('',#461,#383,#384);
#311=AXIS2_PLACEMENT_3D('',#463,#386,#387);
#312=AXIS2_PLACEMENT_3D('',#466,#390,#391);
#313=AXIS2_PLACEMENT_3D('',#469,#394,#395);
#314=AXIS2_PLACEMENT_3D('',#470,#396,#397);
#315=AXIS2_PLACEMENT_3D('',#471,#398,#399);
#316=AXIS2_PLACEMENT_3D('',#472,#400,#401);
#317=DIRECTION('',(0.,0.,1.));
#318=DIRECTION('',(1.,0.,0.));
#319=DIRECTION('',(-1.,0.,0.));
#320=DIRECTION('',(0.,0.,-1.));
#321=DIRECTION('',(-1.,0.,6.60598097129756E-015));
#322=DIRECTION('',(6.64977332457776E-015,0.,1.));
#323=DIRECTION('',(1.,0.,0.));
#324=DIRECTION('',(0.,0.,-1.));
#325=DIRECTION('',(-0.0871557427476582,0.,0.996194698091746));
#326=DIRECTION('',(-0.996194698091746,0.,-0.0871557427476582));
#327=DIRECTION('',(-0.0871557427476582,0.,0.996194698091746));
#328=DIRECTION('',(-0.996194698091746,0.,-0.0871557427476582));
#329=DIRECTION('',(-0.173648177666931,0.984807753012208,0.));
#330=DIRECTION('',(-0.984807753012208,-0.173648177666931,0.));
#331=DIRECTION('',(-0.0871557427476581,0.996194698091745,0.));
#332=DIRECTION('',(0.996194698091746,0.0871557427476581,0.));
#333=DIRECTION('',(-0.0871557427476581,0.996194698091745,0.));
#334=DIRECTION('',(0.996194698091746,0.0871557427476581,0.));
#335=DIRECTION('',(-0.173648177666931,0.984807753012208,0.));
#336=DIRECTION('',(-0.984807753012208,-0.173648177666931,0.));
#337=DIRECTION('',(-0.0871557427476583,0.,-0.996194698091746));
#338=DIRECTION('',(0.996194698091746,0.,-0.0871557427476583));
#339=DIRECTION('',(-0.0871557427476583,0.,-0.996194698091746));
#340=DIRECTION('',(0.996194698091746,0.,-0.0871557427476583));
#341=DIRECTION('',(-0.0871557427476581,-0.996194698091745,0.));
#342=DIRECTION('',(-0.996194698091746,0.0871557427476581,0.));
#343=DIRECTION('',(-0.0871557427476581,-0.996194698091745,0.));
#344=DIRECTION('',(-0.996194698091746,0.0871557427476581,0.));
#345=DIRECTION('',(-1.,0.,6.54474863134019E-015));
#346=DIRECTION('',(-6.59194920871187E-015,0.,-1.));
#347=DIRECTION('',(1.,0.,0.));
#348=DIRECTION('',(0.,0.,-1.));
#349=DIRECTION('',(1.,0.,0.));
#350=DIRECTION('',(0.,0.,-1.));
#351=DIRECTION('',(1.,0.,0.));
#352=DIRECTION('',(0.,0.,-1.));
#353=DIRECTION('',(1.,0.,0.));
#354=DIRECTION('',(0.,0.,-1.));
#355=DIRECTION('',(1.,0.,0.));
#356=DIRECTION('',(0.,0.,1.));
#357=DIRECTION('',(1.,0.,0.));
#358=DIRECTION('',(0.,0.,-1.));
#359=DIRECTION('',(1.,0.,0.));
#360=DIRECTION('',(0.,0.,-1.));
#361=DIRECTION('',(-1.,0.,0.));
#362=DIRECTION('',(0.,0.,-1.));
#363=DIRECTION('',(1.,0.,0.));
#364=DIRECTION('',(0.,0.,-1.));
#365=DIRECTION('',(1.,0.,0.));
#366=DIRECTION('',(0.,0.,-1.));
#367=DIRECTION('',(1.,0.,0.));
#368=DIRECTION('',(0.,0.,-1.));
#369=DIRECTION('',(1.,0.,0.));
#370=DIRECTION('',(0.,0.,-1.));
#371=DIRECTION('',(-1.,0.,0.));
#372=DIRECTION('',(0.,0.,1.));
#373=DIRECTION('',(-1.,0.,0.));
#374=DIRECTION('',(0.,0.,1.));
#375=DIRECTION('',(1.,0.,0.));
#376=DIRECTION('',(2.25041464800903E-017,0.,-1.));
#377=DIRECTION('',(1.,0.,0.));
#378=DIRECTION('',(-5.46374710213729E-018,0.,-1.));
#379=DIRECTION('',(0.,0.,-1.));
#380=DIRECTION('',(0.,1.,0.));
#381=DIRECTION('',(0.,0.,1.));
#382=DIRECTION('',(0.,-1.,0.));
#383=DIRECTION('',(-1.,0.,0.));
#384=DIRECTION('',(0.,0.,1.));
#385=DIRECTION('',(0.,0.,-1.));
#386=DIRECTION('',(0.0871557427476581,-0.996194698091745,0.));
#387=DIRECTION('',(0.996194698091746,0.0871557427476581,0.));
#388=DIRECTION('',(0.981172637986292,0.173007208809884,-0.085841482785626));
#389=DIRECTION('',(-0.981172637986292,-0.173007208809884,-0.0858414827856259));
#390=DIRECTION('',(-0.173648177666931,0.984807753012208,0.));
#391=DIRECTION('',(-0.984807753012208,-0.173648177666931,0.));
#392=DIRECTION('',(-0.992432509138967,0.0868265938642475,0.0868265938642477));
#393=DIRECTION('',(0.992432509138967,-0.0868265938642475,0.0868265938642476));
#394=DIRECTION('',(0.0871557427476581,0.996194698091745,0.));
#395=DIRECTION('',(-0.996194698091746,0.0871557427476581,0.));
#396=DIRECTION('',(0.0871557427476582,0.,-0.996194698091746));
#397=DIRECTION('',(-0.996194698091746,0.,-0.0871557427476582));
#398=DIRECTION('',(0.0871557427476583,0.,0.996194698091746));
#399=DIRECTION('',(0.996194698091745,0.,-0.0871557427476583));
#400=DIRECTION('',(1.,0.,0.));
#401=DIRECTION('',(0.,0.,-1.));
#402=CARTESIAN_POINT('',(0.,0.,0.));
#403=CARTESIAN_POINT('',(3.8,0.,0.));
#404=CARTESIAN_POINT('',(3.8,0.,-3.));
#405=CARTESIAN_POINT('',(5.30000000000002,0.,-1.71348736802353E-016));
#406=CARTESIAN_POINT('',(5.30000000000004,0.,3.));
#407=CARTESIAN_POINT('',(0.,0.,0.));
#408=CARTESIAN_POINT('',(1.27243283757622,0.,0.315094108342544));
#409=CARTESIAN_POINT('',(5.57722471414118,-2.49537164805046,0.691714596380467));
#410=CARTESIAN_POINT('',(6.243429926,0.,0.75));
#411=CARTESIAN_POINT('',(1.27243283757622,0.,0.315094108342544));
#412=CARTESIAN_POINT('',(5.57961864236492,2.49120561207097,0.691924037961339));
#413=CARTESIAN_POINT('',(1.00302504193129,1.68422868057682,0.));
#414=CARTESIAN_POINT('',(5.62887078602463,2.49989009385591,0.106898253229843));
#415=CARTESIAN_POINT('',(1.11583195749692,2.10505035830742,0.));
#416=CARTESIAN_POINT('',(5.630127019,2.5,0.));
#417=CARTESIAN_POINT('',(1.11583195749692,2.10505035830742,0.));
#418=CARTESIAN_POINT('',(5.62887078602463,2.49989009385591,-0.106898253229843));
#419=CARTESIAN_POINT('',(1.00302504193129,1.68422868057682,0.));
#420=CARTESIAN_POINT('',(5.57961864236492,2.49120561207097,-0.691924037961339));
#421=CARTESIAN_POINT('',(1.27243283757622,0.,-0.315094108342543));
#422=CARTESIAN_POINT('',(6.243429926,0.,-0.75));
#423=CARTESIAN_POINT('',(1.27243283757622,0.,-0.315094108342543));
#424=CARTESIAN_POINT('',(5.57722471414118,-2.49537164805046,-0.691714596380467));
#425=CARTESIAN_POINT('',(1.11583195749692,-2.10505035830742,0.));
#426=CARTESIAN_POINT('',(5.630127019,-2.5,0.));
#427=CARTESIAN_POINT('',(1.11583195749692,-2.10505035830742,0.));
#428=CARTESIAN_POINT('',(1.3,0.,0.));
#429=CARTESIAN_POINT('',(1.2,0.,0.));
#430=CARTESIAN_POINT('',(1.2,0.,-2.5));
#431=CARTESIAN_POINT('',(3.8,0.,0.));
#432=CARTESIAN_POINT('',(3.8,0.,-2.5));
#433=CARTESIAN_POINT('',(1.9,0.,0.));
#434=CARTESIAN_POINT('',(3.8,0.,0.));
#435=CARTESIAN_POINT('',(0.05,0.,0.));
#436=CARTESIAN_POINT('',(0.05,0.,2.1));
#437=CARTESIAN_POINT('',(0.8,0.,0.));
#438=CARTESIAN_POINT('',(0.8,0.,-2.1));
#439=CARTESIAN_POINT('',(0.4,0.,0.));
#440=CARTESIAN_POINT('',(4.8,1.0842021724855E-016,0.));
#441=CARTESIAN_POINT('',(4.8,1.0842021724855E-016,-1.5));
#442=CARTESIAN_POINT('',(4.8,1.0842021724855E-016,0.));
#443=CARTESIAN_POINT('',(4.6,1.0842021724855E-016,0.));
#444=CARTESIAN_POINT('',(4.6,1.0842021724855E-016,-1.7));
#445=CARTESIAN_POINT('',(0.,1.0842021724855E-016,0.));
#446=CARTESIAN_POINT('',(0.,1.0842021724855E-016,-1.7));
#447=CARTESIAN_POINT('',(0.,1.0842021724855E-016,0.));
#448=CARTESIAN_POINT('',(0.,0.,0.));
#449=CARTESIAN_POINT('',(0.,0.,2.05));
#450=CARTESIAN_POINT('',(0.,0.,0.));
#451=CARTESIAN_POINT('',(0.8,0.,0.));
#452=CARTESIAN_POINT('',(0.05,0.,0.));
#453=CARTESIAN_POINT('',(5.3,-2.47111762831389,-0.75));
#454=CARTESIAN_POINT('',(5.3,-2.47111762831389,0.667460576643899));
#455=CARTESIAN_POINT('',(5.3,-2.47111762831389,-0.667460576643899));
#456=CARTESIAN_POINT('',(5.3,2.44190130111296,-0.667460576643899));
#457=CARTESIAN_POINT('',(5.3,2.44190130111296,-0.667460576643899));
#458=CARTESIAN_POINT('',(5.3,2.44190130111296,0.75));
#459=CARTESIAN_POINT('',(5.3,2.44190130111296,0.667460576643899));
#460=CARTESIAN_POINT('',(5.3,-2.47111762831389,0.667460576643899));
#461=CARTESIAN_POINT('',(5.3,-2.5,0.75));
#462=CARTESIAN_POINT('',(5.62887078602463,2.49989009385591,-0.75));
#463=CARTESIAN_POINT('',(5.630127019,2.5,0.75));
#464=CARTESIAN_POINT('',(6.225053909166,2.60501326390877,-0.748392306846264));
#465=CARTESIAN_POINT('',(4.46111255332551,2.29398281048662,0.594067435085673));
#466=CARTESIAN_POINT('',(5.3,2.44190130111296,0.75));
#467=CARTESIAN_POINT('',(5.80795865079643,-2.5155582517985,-0.71190120012851));
#468=CARTESIAN_POINT('',(5.30248878052081,-2.47133536839547,0.667678316725474));
#469=CARTESIAN_POINT('',(5.3,-2.47111762831389,0.75));
#470=CARTESIAN_POINT('',(5.3,-2.5,0.667460576643899));
#471=CARTESIAN_POINT('',(6.243429926,2.5,-0.75));
#472=CARTESIAN_POINT('',(4.6,1.0842021724855E-016,0.));
#473=MECHANICAL_DESIGN_GEOMETRIC_PRESENTATION_REPRESENTATION('',(#32),#474);
#474=(
GEOMETRIC_REPRESENTATION_CONTEXT(3)
GLOBAL_UNCERTAINTY_ASSIGNED_CONTEXT((#475))
GLOBAL_UNIT_ASSIGNED_CONTEXT((#481,#477,#476))
REPRESENTATION_CONTEXT('08_2610_000_000_001_00',
'TOP_LEVEL_ASSEMBLY_PART')
);
#475=UNCERTAINTY_MEASURE_WITH_UNIT(LENGTH_MEASURE(2.E-005),#481,
'DISTANCE_ACCURACY_VALUE','Maximum Tolerance applied to model');
#476=(
NAMED_UNIT(*)
SI_UNIT($,.STERADIAN.)
SOLID_ANGLE_UNIT()
);
#477=(
CONVERSION_BASED_UNIT('DEGREE',#479)
NAMED_UNIT(#478)
PLANE_ANGLE_UNIT()
);
#478=DIMENSIONAL_EXPONENTS(0.,0.,0.,0.,0.,0.,0.);
#479=PLANE_ANGLE_MEASURE_WITH_UNIT(PLANE_ANGLE_MEASURE(0.0174532925),#480);
#480=(
NAMED_UNIT(*)
PLANE_ANGLE_UNIT()
SI_UNIT($,.RADIAN.)
);
#481=(
LENGTH_UNIT()
NAMED_UNIT(*)
SI_UNIT(.MILLI.,.METRE.)
);
ENDSEC;
END-ISO-10303-21;
